Andrew W K - Long Live The Party (var.2) Guitar tab download free or play online

Guitar tab for Long Live The Party (var.2) by Andrew W K free download and read or play online: file .txt, 1.22 kb has 75 views and 0 downloads.

Download guitar tab "Long Live The Party (var.2)" (Andrew W K)

Andrew W K Band name
Long Live The Party Song name
Guitar tabs Tab type
1.22 kb File size
.TXT File type
75 views
0 downloads
 
Are you robot?

Long Live The Party (var.2) guitar tab read and play online

                    Artist - Andrew W.K.
Album  - The Wolf
Song   - Long Live The Party
Transcribed - Rob Amato, The Nosebleeds -  www.TheNosebleedsRock.cjb.net

Hey folks, this song is easy, except for the piano solo

Intro
E-----------
B-----------
G----------- You must listen to the song for this rythm, plain and simple.
D-10--------
A-10--------
E-8---------

E---------------
B---------------
G---------------
D---------------
A---------------
E-8----1---3--

Verse X4
E--------------------------------
B--------------------------------
G--------10....-12....-----------
D-10....-10....-12....-----------
A-10....-8-....-10....-----------
E-8-....-------------------------

Let Ring while a second guitar plays the intro riff
E---------------
B---------------
G---------------
D-10------------
A-10------------
E-8-------------


Verse X4

As for the Piano solo, im talking to Andrew wk right now and im gonna transcribe it as soon as i can get it. Im barely a keyboard player. 

Well that about covers it. Just repreat the Verse riff a few times at the end and thats it....Any questions about life or the tabs just email me at evoltband@hotmail.com  LONG LIVE THE PARTY!!

Visit www.directTABS.com for more free tablature!                    

Comments for guitar tab — Long Live The Party (var.2) (Andrew W K)

Other Long Live The Party (var.2) by Andrew W K tabs:

Last viewed Andrew W K tabs: