Andrew W K - I Love NYC (var.1) Guitar tab download free or play online

Guitar tab for I Love NYC (var.1) by Andrew W K free download and read or play online: file .txt, 3.28 kb has 79 views and 0 downloads.

Download guitar tab "I Love NYC (var.1)" (Andrew W K)

Andrew W K Band name
I Love NYC Song name
Guitar tabs Tab type
3.28 kb File size
.TXT File type
79 views
0 downloads
 
Are you robot?

I Love NYC (var.1) guitar tab read and play online

                    By: Alpha-Q
Tuning: Standard (E,A,D,G,b,e) (Low to High)

/  slide up
\  slide down
.  palm mute

Intro, (the synth stuff)
(all pm)
|-----------------------------------------------------------------------|
|-----------------------------------------------------------------------|
|------------------6666666666666----------------------------------------|
|-4444444444444444-4444444444444-444-4444444444444444-------------------|
|-2222222222222222---------------222-2222222222222222-44444444444444444-|
|-----------------------------------------------------22222222222222222-|

Riff 1
play each one 4 times
|------------------|
|------------------|
|----------9-9-8-8-|
|-9-9-9-9--9-9-8-8-|
|-9-9-9-9--7-7-6-6-|
|-7-7-7-7----------|

(this is played over Riff 1)
|-------------------------------------------|
|-7-7--5-4-----7-7--5-4-----5-4-------------|
|----------6-4----------6-4-----6-4-3---3-4-|
|-------------------------------------6-----|
|-------------------------------------------|
|-------------------------------------------|

|---------------------------------------------|
|-7-7--5-4-----7-7--5-4-----5-4---------------|
|----------6-4----------6-4-----6-4-3---3-6-4-|
|-------------------------------------6-------|
|---------------------------------------------|
|---------------------------------------------|

Riff 3
|----------------------------------------------|
|----------------------------------------------|
|----------------------------------------------|
|-9--9--9--9------11--11-11---11-11--------9-9-|X2
|-9--9--9--9------9---9--9----9--9---------9-9-|
|-7--7--7--7-------------------------------7-7-|

Riff 4
|-------------------------------------------------------------|
|-------------------------------------------------------------|
|-------------------------6-----------------------------6-----|
|-4--4-4-4--4-4-2-2-1-1-4-4--4-4--4-4----4-4-4--2-2-1-1-4---4-|
|-4--4-4-2--2-2---------4----4-4--4-4----2-2-2------------4-2-|
|-2--2-2----------------2----2-2--2-2---------------------2---|

Riff 5
|---------------------------------------------|
|---------------------------------------------|
|----------4-4-4------------------6-6-6-------|
|-44444444-2-2-2-4---4------------4-4-4-4---4-|
|-22222222-------2---2---44444444-------2---2-|
|------------------0-----22222222---------0---|
pm                 .                      . 

interlude
|-----------------------------------------|
|-----------------------------------------|
|--------------6--------------------------|
|--------2-1---4------------2-1-------1---|
|-2--------------4--2-----------4-2-----2-|
|---2-4-2----2---2----2-4-2---------2-----|

|---------------------|
|---------------------|
|---------------------|
|---------------------|
|----------2-2------2-|
|-(2)-7\2~-----7\2~---|

Riff 4
|-----------------------------------------|
|-----------------------------------------|
|-44444444-44444444-----------------------|
|-44444444-44444444-----------------------|
|-22222222-22222222-44444444-4444---2---2-|
|-------------------22222222-2222-2---2---|
pm........ ........ ........ .... .     .


Outro solo
|---------------------------7~\-|
|-------------------7--77-7-----|
|------8-6~-4/6-8-9-------------|
|-4/9~--------------------------|
|-------------------------------|
|-------------------------------|

E-mail me any corrections: john1645@msu.edu                    

Comments for guitar tab — I Love NYC (var.1) (Andrew W K)

Other I Love NYC (var.1) by Andrew W K tabs:

Last viewed Andrew W K tabs: