Andrew W K - I Get Wet (var.7) Guitar tab download free or play online

Guitar tab for I Get Wet (var.7) by Andrew W K free download and read or play online: file .txt, 1.85 kb has 87 views and 0 downloads.

Download guitar tab "I Get Wet (var.7)" (Andrew W K)

Andrew W K Band name
I Get Wet Song name
Guitar tabs Tab type
1.85 kb File size
.TXT File type
87 views
0 downloads
 
Are you robot?

I Get Wet (var.7) guitar tab read and play online

                    intro
x---------------------------------------------------------------------
x-7-7-7-7-7-7-7-7--4-4-4-4-4-4-4-4--6-6-6-6-6-6-6-6--7-7-7-7-7-7-7-7--
x-9-9-9-9-9-9-9-9--6-6-6-6-6-6-6-6--8-8-8-8-8-8-8-8--9-9-9-9-9-9-9-9--
x-9-9-9-9-9-9-9-9--6-6-6-6-6-6-6-6--8-8-8-8-8-8-8-8--9-9-9-9-9-9-9-9-- --> 
x---------------------------------------------------------------------
x---------------------------------------------------------------------

x---------------------------------------------------------------------------x
x-6--2-2-2-2-2-2-2-2--4-4-4-4-4-4-4-4--6-6-6-6-6-6--9--9---7-7-7-7-7-7-7-7--x
x-8--4-4-4-4-4-4-4-4--6-6-6-6-6-6-6-6--8-8-8-8-8-8--11-11--9-9-9-9-9-9-9-9--x
x-8--4-4-4-4-4-4-4-4--6-6-6-6-6-6-6-6--8-8-8-8-8-8--11-11--9-9-9-9-9-9-9-9--x
x---------------------------------------------------------------------------x
x---------------------------------------------------------------------------x

chorus
x-0-0-0-0-0-0-0-0------------------------------------------------
x-2-2-2-2-2-2-2-2--0-0-0-0-0-0-0-0--2-2-2-2-2-2-2-2--4-4-4-4-4-4/-
x-2-2-2-2-2-2-2-2--2-2-2-2-2-2-2-2--4-4-4-4-4-4-4-4--6-6-6-6-6-6/- -->   
x------------------2-2-2-2-2-2-2-2--4-4-4-4-4-4-4-4--6-6-6-6-6-6/-
x----------------------------------------------------------------
x----------------------------------------------------------------


--> x-------4-4-4-4-4-4--2-2-----------------------------------------------------x
    x-/6-6--6-6-6-6-6-6--4-4--0-0-0-0-0-0-0-0--2-2-2-2-2-2-2-2--4-4-4-4-4-4-4-4--x
    x-/8-8--6-6-6-6-6-6--4-4--2-2-2-2-2-2-2-2--4-4-4-4-4-4-4-4--6-6-6-6-6-6-6-6--x
    x-/8-8--------------------2-2-2-2-2-2-2-2--4-4-4-4-4-4-4-4--6-6-6-6-6-6-6-6--x
    x----------------------------------------------------------------------------x
    x----------------------------------------------------------------------------x

Visit www.directTABS.com for more free tablature!                    

Comments for guitar tab — I Get Wet (var.7) (Andrew W K)

Other I Get Wet (var.7) by Andrew W K tabs:

Last viewed Andrew W K tabs: